  0
SECTION
  2
HEADER
  9
$ACADVER
  1
AC1015
  9
$ACADMAINTVER
 70
     6
  9
$DWGCODEPAGE
  3
ANSI_1254
  9
$INSBASE
 10
0.0
 20
0.0
 30
0.0
  9
$EXTMIN
 10
0.0
 20
0.0
 30
0.0
  9
$EXTMAX
 10
279.4
 20
215.9
 30
0.0
  9
$LIMMIN
 10
0.0
 20
0.0
  9
$LIMMAX
 10
279.4
 20
215.9
  9
$ORTHOMODE
 70
     0
  9
$REGENMODE
 70
     1
  9
$FILLMODE
 70
     1
  9
$QTEXTMODE
 70
     0
  9
$MIRRTEXT
 70
     1
  9
$LTSCALE
 40
1.0
  9
$ATTMODE
 70
     1
  9
$TEXTSIZE
 40
3.5
  9
$TRACEWID
 40
1.0
  9
$TEXTSTYLE
  7
Standard
  9
$CLAYER
  8
0
  9
$CELTYPE
  6
ByLayer
  9
$CECOLOR
 62
   256
  9
$CELTSCALE
 40
1.0
  9
$DISPSILH
 70
     0
  9
$DIMSCALE
 40
1.0
  9
$DIMASZ
 40
3.5
  9
$DIMEXO
 40
1.0
  9
$DIMDLI
 40
3.75
  9
$DIMRND
 40
0.0
  9
$DIMDLE
 40
0.0
  9
$DIMEXE
 40
1.0
  9
$DIMTP
 40
0.0
  9
$DIMTM
 40
0.0
  9
$DIMTXT
 40
3.5
  9
$DIMCEN
 40
2.5
  9
$DIMTSZ
 40
0.0
  9
$DIMTOL
 70
     0
  9
$DIMLIM
 70
     0
  9
$DIMTIH
 70
     1
  9
$DIMTOH
 70
     1
  9
$DIMSE1
 70
     0
  9
$DIMSE2
 70
     0
  9
$DIMTAD
 70
     1
  9
$DIMZIN
 70
     0
  9
$DIMBLK
  1

  9
$DIMASO
 70
     1
  9
$DIMSHO
 70
     1
  9
$DIMPOST
  1

  9
$DIMAPOST
  1

  9
$DIMALT
 70
     0
  9
$DIMALTD
 70
     3
  9
$DIMALTF
 40
0.0393700787
  9
$DIMLFAC
 40
1.0
  9
$DIMTOFL
 70
     1
  9
$DIMTVP
 40
0.0
  9
$DIMTIX
 70
     0
  9
$DIMSOXD
 70
     0
  9
$DIMSAH
 70
     0
  9
$DIMBLK1
  1

  9
$DIMBLK2
  1

  9
$DIMSTYLE
  2
ISO-25
  9
$DIMCLRD
 70
     0
  9
$DIMCLRE
 70
     0
  9
$DIMCLRT
 70
     0
  9
$DIMTFAC
 40
1.0
  9
$DIMGAP
 40
1.524
  9
$DIMJUST
 70
     0
  9
$DIMSD1
 70
     0
  9
$DIMSD2
 70
     0
  9
$DIMTOLJ
 70
     0
  9
$DIMTZIN
 70
     0
  9
$DIMALTZ
 70
     0
  9
$DIMALTTZ
 70
     0
  9
$DIMUPT
 70
     0
  9
$DIMDEC
 70
     2
  9
$DIMTDEC
 70
     2
  9
$DIMALTU
 70
     2
  9
$DIMALTTD
 70
     3
  9
$DIMTXSTY
  7
Standard
  9
$DIMAUNIT
 70
     0
  9
$DIMADEC
 70
     2
  9
$DIMALTRND
 40
0.0
  9
$DIMAZIN
 70
     0
  9
$DIMDSEP
 70
    44
  9
$DIMATFIT
 70
     3
  9
$DIMFRAC
 70
     0
  9
$DIMLDRBLK
  1

  9
$DIMLUNIT
 70
     2
  9
$DIMLWD
 70
    -2
  9
$DIMLWE
 70
    -2
  9
$DIMTMOVE
 70
     0
  9
$LUNITS
 70
     2
  9
$LUPREC
 70
     2
  9
$SKETCHINC
 40
1.0
  9
$FILLETRAD
 40
10.0
  9
$AUNITS
 70
     0
  9
$AUPREC
 70
     2
  9
$MENU
  1
.
  9
$ELEVATION
 40
0.0
  9
$PELEVATION
 40
0.0
  9
$THICKNESS
 40
0.0
  9
$LIMCHECK
 70
     0
  9
$CHAMFERA
 40
0.0
  9
$CHAMFERB
 40
0.0
  9
$CHAMFERC
 40
0.0
  9
$CHAMFERD
 40
0.0
  9
$SKPOLY
 70
     0
  9
$TDCREATE
 40
2460697.540991539
  9
$TDUCREATE
 40
2460697.415991539
  9
$TDUPDATE
 40
2460697.540991539
  9
$TDUUPDATE
 40
2460697.415991539
  9
$TDINDWG
 40
0.0000000116
  9
$TDUSRTIMER
 40
0.0000000116
  9
$USRTIMER
 70
     1
  9
$ANGBASE
 50
0.0
  9
$ANGDIR
 70
     0
  9
$PDMODE
 70
     0
  9
$PDSIZE
 40
-1.0
  9
$PLINEWID
 40
0.0
  9
$SPLFRAME
 70
     0
  9
$SPLINETYPE
 70
     6
  9
$SPLINESEGS
 70
     8
  9
$HANDSEED
  5
B3
  9
$SURFTAB1
 70
     6
  9
$SURFTAB2
 70
     6
  9
$SURFTYPE
 70
     6
  9
$SURFU
 70
     6
  9
$SURFV
 70
     6
  9
$UCSBASE
  2

  9
$UCSNAME
  2

  9
$UCSORG
 10
0.0
 20
0.0
 30
0.0
  9
$UCSXDIR
 10
1.0
 20
0.0
 30
0.0
  9
$UCSYDIR
 10
0.0
 20
1.0
 30
0.0
  9
$UCSORTHOREF
  2

  9
$UCSORTHOVIEW
 70
     0
  9
$UCSORGTOP
 10
0.0
 20
0.0
 30
0.0
  9
$UCSORGBOTTOM
 10
0.0
 20
0.0
 30
0.0
  9
$UCSORGLEFT
 10
0.0
 20
0.0
 30
0.0
  9
$UCSORGRIGHT
 10
0.0
 20
0.0
 30
0.0
  9
$UCSORGFRONT
 10
0.0
 20
0.0
 30
0.0
  9
$UCSORGBACK
 10
0.0
 20
0.0
 30
0.0
  9
$PUCSBASE
  2

  9
$PUCSNAME
  2

  9
$PUCSORG
 10
0.0
 20
0.0
 30
0.0
  9
$PUCSXDIR
 10
1.0
 20
0.0
 30
0.0
  9
$PUCSYDIR
 10
0.0
 20
1.0
 30
0.0
  9
$PUCSORTHOREF
  2

  9
$PUCSORTHOVIEW
 70
     0
  9
$PUCSORGTOP
 10
0.0
 20
0.0
 30
0.0
  9
$PUCSORGBOTTOM
 10
0.0
 20
0.0
 30
0.0
  9
$PUCSORGLEFT
 10
0.0
 20
0.0
 30
0.0
  9
$PUCSORGRIGHT
 10
0.0
 20
0.0
 30
0.0
  9
$PUCSORGFRONT
 10
0.0
 20
0.0
 30
0.0
  9
$PUCSORGBACK
 10
0.0
 20
0.0
 30
0.0
  9
$USERI1
 70
     0
  9
$USERI2
 70
     0
  9
$USERI3
 70
     0
  9
$USERI4
 70
     0
  9
$USERI5
 70
     0
  9
$USERR1
 40
0.0
  9
$USERR2
 40
0.0
  9
$USERR3
 40
0.0
  9
$USERR4
 40
0.0
  9
$USERR5
 40
0.0
  9
$WORLDVIEW
 70
     1
  9
$SHADEDGE
 70
     3
  9
$SHADEDIF
 70
    70
  9
$TILEMODE
 70
     1
  9
$MAXACTVP
 70
    64
  9
$PINSBASE
 10
0.0
 20
0.0
 30
0.0
  9
$PLIMCHECK
 70
     0
  9
$PEXTMIN
 10
1.0000000000E+20
 20
1.0000000000E+20
 30
1.0000000000E+20
  9
$PEXTMAX
 10
-1.0000000000E+20
 20
-1.0000000000E+20
 30
-1.0000000000E+20
  9
$PLIMMIN
 10
0.0
 20
0.0
  9
$PLIMMAX
 10
420.0
 20
297.0
  9
$UNITMODE
 70
     0
  9
$VISRETAIN
 70
     1
  9
$PLINEGEN
 70
     0
  9
$PSLTSCALE
 70
     1
  9
$TREEDEPTH
 70
  3020
  9
$CMLSTYLE
  2
Standard
  9
$CMLJUST
 70
     0
  9
$CMLSCALE
 40
20.0
  9
$PROXYGRAPHICS
 70
     1
  9
$MEASUREMENT
 70
     1
  9
$CELWEIGHT
370
    -1
  9
$ENDCAPS
280
     0
  9
$JOINSTYLE
280
     0
  9
$LWDISPLAY
290
     1
  9
$INSUNITS
 70
     4
  9
$HYPERLINKBASE
  1

  9
$STYLESHEET
  1

  9
$XEDIT
290
     1
  9
$CEPSNTYPE
380
     0
  9
$PSTYLEMODE
290
     1
  9
$FINGERPRINTGUID
  2
{edcb6731-4470-483e-94b3-4b089e14d34b}
  9
$VERSIONGUID
  2
{FAEB1C32-E019-11D5-929B-00C0DF256EC4}
  9
$EXTNAMES
290
     1
  9
$PSVPSCALE
 40
0.0
  9
$OLESTARTUP
290
     0
  0
ENDSEC
  0
SECTION
  2
CLASSES
  0
CLASS
  1
ACDBDICTIONARYWDFLT
  2
AcDbDictionaryWithDefault
  3
ObjectDBX Classes
 90
        0
280
     0
281
     0
  0
CLASS
  1
VISUALSTYLE
  2
AcDbVisualStyle
  3
ObjectDBX Classes
 90
     4095
280
     0
281
     0
  0
CLASS
  1
MATERIAL
  2
AcDbMaterial
  3
ObjectDBX Classes
 90
     1153
280
     0
281
     0
  0
CLASS
  1
SCALE
  2
AcDbScale
  3
ObjectDBX Classes
 90
     1153
280
     0
281
     0
  0
CLASS
  1
TABLESTYLE
  2
AcDbTableStyle
  3
ObjectDBX Classes
 90
     4095
280
     0
281
     0
  0
CLASS
  1
MLEADERSTYLE
  2
AcDbMLeaderStyle
  3
ACDB_MLEADERSTYLE_CLASS
 90
     4095
280
     0
281
     0
  0
CLASS
  1
SUN
  2
AcDbSun
  3
SCENEOE
 90
     1153
280
     0
281
     0
  0
CLASS
  1
ACDBPLACEHOLDER
  2
AcDbPlaceHolder
  3
ObjectDBX Classes
 90
        0
280
     0
281
     0
  0
CLASS
  1
LAYOUT
  2
AcDbLayout
  3
ObjectDBX Classes
 90
        0
280
     0
281
     0
  0
ENDSEC
  0
SECTION
  2
TABLES
  0
TABLE
  2
VPORT
  5
8
330
0
100
AcDbSymbolTable
 70
     1
  0
VPORT
  5
29
330
8
100
AcDbSymbolTableRecord
100
AcDbViewportTableRecord
  2
*Active
 70
     0
 10
0.0
 20
0.0
 11
1.0
 21
1.0
 12
139.7
 22
107.95
 13
0.0
 23
0.0
 14
10.0
 24
10.0
 15
10.0
 25
10.0
 16
0.0
 26
0.0
 36
1.0
 17
0.0
 27
0.0
 37
0.0
 40
215.9
 41
1.2941176471
 42
50.0
 43
0.0
 44
0.0
 50
0.0
 51
0.0
 71
     0
 72
  2000
 73
     1
 74
     3
 75
     0
 76
     0
 77
     0
 78
     0
281
     0
 65
     1
110
0.0
120
0.0
130
0.0
111
1.0
121
0.0
131
0.0
112
0.0
122
1.0
132
0.0
 79
     0
146
0.0
  0
ENDTAB
  0
TABLE
  2
LTYPE
  5
5
330
0
100
AcDbSymbolTable
 70
     6
  0
LTYPE
  5
14
330
5
100
AcDbSymbolTableRecord
100
AcDbLinetypeTableRecord
  2
ByBlock
 70
     0
  3

 72
    65
 73
     0
 40
0.0
  0
LTYPE
  5
15
330
5
100
AcDbSymbolTableRecord
100
AcDbLinetypeTableRecord
  2
ByLayer
 70
     0
  3

 72
    65
 73
     0
 40
0.0
  0
LTYPE
  5
16
330
5
100
AcDbSymbolTableRecord
100
AcDbLinetypeTableRecord
  2
Continuous
 70
     0
  3
Solid line
 72
    65
 73
     0
 40
0.0
  0
LTYPE
  5
6E
330
5
100
AcDbSymbolTableRecord
100
AcDbLinetypeTableRecord
  2
HIDDEN
 70
     0
  3
Hidden __ __ __ __ __ __ __ __ __ __ __ __ __ __
 72
    65
 73
     2
 40
1.905
 49
1.27
 74
     0
 49
-0.635
 74
     0
  0
LTYPE
  5
6F
330
5
100
AcDbSymbolTableRecord
100
AcDbLinetypeTableRecord
  2
PHANTOM
 70
     0
  3
Phantom ______  __  __  ______  __  __  ______
 72
    65
 73
     6
 40
12.7
 49
6.35
 74
     0
 49
-1.27
 74
     0
 49
1.27
 74
     0
 49
-1.27
 74
     0
 49
1.27
 74
     0
 49
-1.27
 74
     0
  0
LTYPE
  5
70
330
5
100
AcDbSymbolTableRecord
100
AcDbLinetypeTableRecord
  2
CENTER
 70
     0
  3
Center ____ _ ____ _ ____ _ ____ _ ____ _ ____
 72
    65
 73
     4
 40
10.16
 49
6.35
 74
     0
 49
-1.27
 74
     0
 49
1.27
 74
     0
 49
-1.27
 74
     0
  0
LTYPE
  5
71
330
5
100
AcDbSymbolTableRecord
100
AcDbLinetypeTableRecord
  2
CENTERX2
 70
     0
  3
Center (2x) ________  __  ________  __  _____
 72
    65
 73
     4
 40
20.32
 49
12.7
 74
     0
 49
-2.54
 74
     0
 49
2.54
 74
     0
 49
-2.54
 74
     0
  0
LTYPE
  5
72
330
5
100
AcDbSymbolTableRecord
100
AcDbLinetypeTableRecord
  2
DOT2
 70
     0
  3
Dot (.5x) ........................................
 72
    65
 73
     2
 40
0.635
 49
0.0
 74
     0
 49
-0.635
 74
     0
  0
ENDTAB
  0
TABLE
  2
LAYER
  5
2
330
0
100
AcDbSymbolTable
 70
    17
  0
LAYER
  5
10
330
2
100
AcDbSymbolTableRecord
100
AcDbLayerTableRecord
  2
0
 70
     0
 62
     7
  6
Continuous
370
    -3
390
F
  0
LAYER
  5
73
330
2
100
AcDbSymbolTableRecord
100
AcDbLayerTableRecord
  2
FORMAT
 70
     0
 62
     7
  6
Continuous
370
    -3
390
F
  0
LAYER
  5
74
330
2
100
AcDbSymbolTableRecord
100
AcDbLayerTableRecord
  2
YARDIMCI_GEOMETRI
 70
     0
 62
    -6
  6
Continuous
290
     0
370
    -3
390
F
  0
LAYER
  5
75
330
2
100
AcDbSymbolTableRecord
100
AcDbLayerTableRecord
  2
SAYFA_CERCEVESI
 70
     0
 62
     7
  6
Continuous
370
    25
390
F
  0
LAYER
  5
76
330
2
100
AcDbSymbolTableRecord
100
AcDbLayerTableRecord
  2
ANTET
 70
     0
 62
     7
  6
Continuous
370
    -3
390
F
  0
LAYER
  5
77
330
2
100
AcDbSymbolTableRecord
100
AcDbLayerTableRecord
  2
OLCU
 70
     0
 62
   150
  6
Continuous
370
    -3
390
F
  0
LAYER
  5
78
330
2
100
AcDbSymbolTableRecord
100
AcDbLayerTableRecord
  2
METIN
 70
     0
 62
    96
  6
Continuous
370
    -3
390
F
  0
LAYER
  5
79
330
2
100
AcDbSymbolTableRecord
100
AcDbLayerTableRecord
  2
BALON
 70
     0
 62
     5
  6
Continuous
370
    -3
390
F
  0
LAYER
  5
7A
330
2
100
AcDbSymbolTableRecord
100
AcDbLayerTableRecord
  2
VURGU
 70
     0
 62
     7
  6
Continuous
370
    -3
390
F
  0
LAYER
  5
7B
330
2
100
AcDbSymbolTableRecord
100
AcDbLayerTableRecord
  2
SILIK
 70
     0
 62
     7
  6
Continuous
370
    -3
390
F
  0
LAYER
  5
7C
330
2
100
AcDbSymbolTableRecord
100
AcDbLayerTableRecord
  2
MODEL
 70
     0
 62
     7
  6
Continuous
370
    -3
390
F
  0
LAYER
  5
7D
330
2
100
AcDbSymbolTableRecord
100
AcDbLayerTableRecord
  2
DETAYLANDıRMA
 70
     0
 62
   190
  6
Continuous
370
    -3
390
F
  0
LAYER
  5
7E
330
2
100
AcDbSymbolTableRecord
100
AcDbLayerTableRecord
  2
TOLERANS
 70
     0
 62
   230
  6
Continuous
370
    -3
390
F
  0
LAYER
  5
7F
330
2
100
AcDbSymbolTableRecord
100
AcDbLayerTableRecord
  2
MERKEZ_CIZGILERI
 70
     0
 62
    30
  6
Continuous
370
    -3
390
F
  0
LAYER
  5
80
330
2
100
AcDbSymbolTableRecord
100
AcDbLayerTableRecord
  2
KESIT-DETAY_CIZGILERI
 70
     0
 62
     7
  6
Continuous
370
    -3
390
F
  0
LAYER
  5
81
330
2
100
AcDbSymbolTableRecord
100
AcDbLayerTableRecord
  2
\U+041E\U+0421\U+0415\U+0412\U+042B\U+0415
 70
     0
 62
     7
  6
Continuous
370
    -3
390
F
  0
LAYER
  5
82
330
2
100
AcDbSymbolTableRecord
100
AcDbLayerTableRecord
  2
\U+0412\U+041E\U+0414\U+042F\U+041D\U+042B\U+0415_\U+0417\U+041D\U+0410\U+041A\U+0418
 70
     0
 62
    11
  6
Continuous
370
    -3
390
F
  0
ENDTAB
  0
TABLE
  2
STYLE
  5
3
330
0
100
AcDbSymbolTable
 70
     1
  0
STYLE
  5
11
330
3
100
AcDbSymbolTableRecord
100
AcDbTextStyleTableRecord
  2
Standard
 70
     0
 40
0.0
 41
1.0
 50
0.0
 71
     0
 42
3.5
  3
txt
  4

  0
ENDTAB
  0
TABLE
  2
VIEW
  5
6
330
0
100
AcDbSymbolTable
 70
     0
  0
ENDTAB
  0
TABLE
  2
UCS
  5
7
330
0
100
AcDbSymbolTable
 70
     0
  0
ENDTAB
  0
TABLE
  2
APPID
  5
9
330
0
100
AcDbSymbolTable
 70
     1
  0
APPID
  5
12
330
9
100
AcDbSymbolTableRecord
100
AcDbRegAppTableRecord
  2
ACAD
 70
     0
  0
ENDTAB
  0
TABLE
  2
DIMSTYLE
  5
A
330
0
100
AcDbSymbolTable
 70
     1
100
AcDbDimStyleTable
  0
DIMSTYLE
105
27
330
A
100
AcDbSymbolTableRecord
100
AcDbDimStyleTableRecord
  2
ISO-25
 70
     0
 41
2.5
 42
0.625
 43
3.75
 44
1.25
 73
     0
 74
     0
 77
     1
 78
     8
140
2.5
141
2.5
143
0.0393700787
147
0.625
171
     3
172
     1
178
     0
271
     2
272
     2
274
     3
278
    44
283
     0
284
     8
340
11
  0
ENDTAB
  0
TABLE
  2
BLOCK_RECORD
  5
1
330
0
100
AcDbSymbolTable
 70
     2
  0
BLOCK_RECORD
  5
1F
330
1
100
AcDbSymbolTableRecord
100
AcDbBlockTableRecord
  2
*Model_Space
340
22
  0
BLOCK_RECORD
  5
1B
330
1
100
AcDbSymbolTableRecord
100
AcDbBlockTableRecord
  2
*Paper_Space
340
1E
  0
BLOCK_RECORD
  5
23
330
1
100
AcDbSymbolTableRecord
100
AcDbBlockTableRecord
  2
*Paper_Space0
340
26
  0
BLOCK_RECORD
  5
85
330
1
100
AcDbSymbolTableRecord
100
AcDbBlockTableRecord
  2
SW_CENTERMARKSYMBOL_0
340
0
102
{BLKREFS
331
90
102
}
  0
ENDTAB
  0
ENDSEC
  0
SECTION
  2
BLOCKS
  0
BLOCK
  5
20
330
1F
100
AcDbEntity
  8
0
100
AcDbBlockBegin
  2
*Model_Space
 70
     0
 10
0.0
 20
0.0
 30
0.0
  3
*Model_Space
  1

  0
ENDBLK
  5
21
330
1F
100
AcDbEntity
  8
0
100
AcDbBlockEnd
  0
BLOCK
  5
1C
330
1B
100
AcDbEntity
 67
     1
  8
0
100
AcDbBlockBegin
  2
*Paper_Space
 70
     0
 10
0.0
 20
0.0
 30
0.0
  3
*Paper_Space
  1

  0
ENDBLK
  5
1D
330
1B
100
AcDbEntity
 67
     1
  8
0
100
AcDbBlockEnd
  0
BLOCK
  5
24
330
23
100
AcDbEntity
  8
0
100
AcDbBlockBegin
  2
*Paper_Space0
 70
     0
 10
0.0
 20
0.0
 30
0.0
  3
*Paper_Space0
  1

  0
ENDBLK
  5
25
330
23
100
AcDbEntity
  8
0
100
AcDbBlockEnd
  0
BLOCK
  5
86
330
85
100
AcDbEntity
  8
0
100
AcDbBlockBegin
  2
SW_CENTERMARKSYMBOL_0
 70
     0
 10
0.0
 20
0.0
 30
0.0
  3
SW_CENTERMARKSYMBOL_0
  1

  0
LINE
  5
88
330
85
100
AcDbEntity
  8
FORMAT
 62
     0
100
AcDbLine
 10
0.0
 20
0.0
 30
0.0
 11
0.0
 21
2.5
 31
0.0
  0
LINE
  5
89
330
85
100
AcDbEntity
  8
FORMAT
 62
     0
100
AcDbLine
 10
0.0
 20
0.0
 30
0.0
 11
-2.5
 21
0.0
 31
0.0
  0
LINE
  5
8A
330
85
100
AcDbEntity
  8
FORMAT
 62
     0
100
AcDbLine
 10
0.0
 20
0.0
 30
0.0
 11
0.0
 21
-2.5
 31
0.0
  0
LINE
  5
8B
330
85
100
AcDbEntity
  8
FORMAT
 62
     0
100
AcDbLine
 10
0.0
 20
0.0
 30
0.0
 11
2.5
 21
0.0
 31
0.0
  0
LINE
  5
8C
330
85
100
AcDbEntity
  8
FORMAT
 62
     0
100
AcDbLine
 10
0.0
 20
5.0
 30
0.0
 11
0.0
 21
127.5
 31
0.0
  0
LINE
  5
8D
330
85
100
AcDbEntity
  8
FORMAT
 62
     0
100
AcDbLine
 10
-5.0
 20
0.0
 30
0.0
 11
-127.5
 21
0.0
 31
0.0
  0
LINE
  5
8E
330
85
100
AcDbEntity
  8
FORMAT
 62
     0
100
AcDbLine
 10
0.0
 20
-5.0
 30
0.0
 11
0.0
 21
-127.5
 31
0.0
  0
LINE
  5
8F
330
85
100
AcDbEntity
  8
FORMAT
 62
     0
100
AcDbLine
 10
5.0
 20
0.0
 30
0.0
 11
127.5
 21
0.0
 31
0.0
  0
ENDBLK
  5
87
330
85
100
AcDbEntity
  8
0
100
AcDbBlockEnd
  0
ENDSEC
  0
SECTION
  2
ENTITIES
  0
CIRCLE
  5
83
330
1F
100
AcDbEntity
  8
0
  6
Continuous
 62
     7
370
    25
100
AcDbCircle
 10
127.8025537254
 20
106.0321058177
 30
0.0
 40
102.3
  0
CIRCLE
  5
84
330
1F
100
AcDbEntity
  8
0
  6
Continuous
 62
     7
370
    25
100
AcDbCircle
 10
127.8025537254
 20
106.0321058177
 30
0.0
 40
125.0
  0
INSERT
  5
90
330
1F
100
AcDbEntity
  8
FORMAT
100
AcDbBlockReference
  2
SW_CENTERMARKSYMBOL_0
 10
127.8025537254
 20
106.0321058177
 30
0.0
  0
ARC
  5
91
330
1F
100
AcDbEntity
  8
0
  6
Continuous
 62
     7
370
    25
100
AcDbCircle
 10
124.2667409369
 20
669.9701215513
 30
0.0
 40
374.9999999999999
100
AcDbArc
 50
270.5402404048
 51
290.0452498664
  0
ARC
  5
92
330
1F
100
AcDbEntity
  8
0
  6
Continuous
 62
     7
370
    25
100
AcDbCircle
 10
131.3383665139
 20
669.9701215513
 30
0.0
 40
374.9999999999999
100
AcDbArc
 50
249.9547501336
 51
269.4597595952
  0
LINE
  5
93
330
1F
100
AcDbEntity
  8
0
  6
Continuous
 62
     7
370
    25
100
AcDbLine
 10
2.8025537254
 20
468.9421055553
 30
0.0
 11
2.8025537254
 21
317.6867912179
 31
0.0
  0
LINE
  5
94
330
1F
100
AcDbEntity
  8
0
  6
Continuous
 62
     7
370
    25
100
AcDbLine
 10
252.8025537254
 20
317.6867912179
 30
0.0
 11
252.8025537254
 21
468.9421055553
 31
0.0
  0
LINE
  5
95
330
1F
100
AcDbEntity
  8
0
  6
Continuous
 62
     7
370
    25
100
AcDbLine
 10
127.8025537254
 20
317.6867912179
 30
0.0
 11
252.8025537254
 21
317.6867912179
 31
0.0
  0
LINE
  5
96
330
1F
100
AcDbEntity
  8
0
  6
Continuous
 62
     7
370
    25
100
AcDbLine
 10
2.8025537254
 20
317.6867912179
 30
0.0
 11
127.8025537254
 21
317.6867912179
 31
0.0
  0
LINE
  5
97
330
1F
100
AcDbEntity
  8
0
  6
Continuous
 62
     7
370
    25
100
AcDbLine
 10
127.8025537254
 20
468.9421055553
 30
0.0
 11
252.8025537254
 21
468.9421055553
 31
0.0
  0
LINE
  5
98
330
1F
100
AcDbEntity
  8
0
  6
Continuous
 62
     7
370
    25
100
AcDbLine
 10
2.8025537254
 20
468.9421055553
 30
0.0
 11
127.8025537254
 21
468.9421055553
 31
0.0
  0
LINE
  5
99
330
1F
100
AcDbEntity
  8
0
  6
Continuous
 62
     7
370
    25
100
AcDbLine
 10
252.8025537254
 20
-321.7524993737
 30
0.0
 11
252.8025537254
 21
-170.4971850364
 31
0.0
  0
LINE
  5
9A
330
1F
100
AcDbEntity
  8
0
  6
Continuous
 62
     7
370
    25
100
AcDbLine
 10
2.8025537254
 20
-170.4971850364
 30
0.0
 11
2.8025537254
 21
-321.7524993737
 31
0.0
  0
ARC
  5
9B
330
1F
100
AcDbEntity
  8
0
  6
Continuous
 62
     7
370
    25
100
AcDbCircle
 10
131.3383665139
 20
-522.7805153698
 30
0.0
 40
375.0
100
AcDbArc
 50
90.5402404048
 51
110.0452498664
  0
ARC
  5
9C
330
1F
100
AcDbEntity
  8
0
  6
Continuous
 62
     7
370
    25
100
AcDbCircle
 10
124.2667409369
 20
-522.7805153698
 30
0.0
 40
375.0
100
AcDbArc
 50
69.9547501336
 51
89.4597595952
  0
LINE
  5
9D
330
1F
100
AcDbEntity
  8
0
  6
Continuous
 62
     7
370
    25
100
AcDbLine
 10
252.8025537254
 20
-321.7524993737
 30
0.0
 11
2.8025537254
 21
-321.7524993737
 31
0.0
  0
LINE
  5
9E
330
1F
100
AcDbEntity
  8
0
  6
Continuous
 62
     7
370
    25
100
AcDbLine
 10
252.8025537254
 20
-170.4971850364
 30
0.0
 11
2.8025537254
 21
-170.4971850364
 31
0.0
  0
ARC
  5
9F
330
1F
100
AcDbEntity
  8
0
  6
Continuous
 62
     7
370
    25
100
AcDbCircle
 10
708.632365195
 20
109.5679186062
 30
0.0
 40
374.9999999999999
100
AcDbArc
 50
180.5402404048
 51
200.0452498664
  0
ARC
  5
A0
330
1F
100
AcDbEntity
  8
0
  6
Continuous
 62
     7
370
    25
100
AcDbCircle
 10
708.632365195
 20
102.4962930291
 30
0.0
 40
374.9999999999999
100
AcDbArc
 50
159.9547501336
 51
179.4597595952
  0
LINE
  5
A1
330
1F
100
AcDbEntity
  8
0
  6
Continuous
 62
     7
370
    25
100
AcDbLine
 10
507.6043491989
 20
231.0321058177
 30
0.0
 11
356.3490348616
 21
231.0321058177
 31
0.0
  0
LINE
  5
A2
330
1F
100
AcDbEntity
  8
0
  6
Continuous
 62
     7
370
    25
100
AcDbLine
 10
356.3490348616
 20
-18.9678941823
 30
0.0
 11
507.6043491989
 21
-18.9678941823
 31
0.0
  0
LINE
  5
A3
330
1F
100
AcDbEntity
  8
0
  6
Continuous
 62
     7
370
    25
100
AcDbLine
 10
356.3490348616
 20
231.0321058177
 30
0.0
 11
356.3490348616
 21
-18.9678941823
 31
0.0
  0
LINE
  5
A4
330
1F
100
AcDbEntity
  8
0
  6
Continuous
 62
     7
370
    25
100
AcDbLine
 10
507.6043491989
 20
231.0321058177
 30
0.0
 11
507.6043491989
 21
-18.9678941823
 31
0.0
  0
ARC
  5
A5
330
1F
100
AcDbEntity
  8
0
  6
Continuous
 62
     7
370
    25
100
AcDbCircle
 10
-459.9372505762
 20
102.4962930291
 30
0.0
 40
375.0
100
AcDbArc
 50
0.5402404048
 51
20.0452498664
  0
ARC
  5
A6
330
1F
100
AcDbEntity
  8
0
  6
Continuous
 62
     7
370
    25
100
AcDbCircle
 10
-459.9372505762
 20
109.5679186062
 30
0.0
 40
375.0
100
AcDbArc
 50
339.9547501336
 51
359.4597595952
  0
LINE
  5
A7
330
1F
100
AcDbEntity
  8
0
  6
Continuous
 62
     7
370
    25
100
AcDbLine
 10
-258.9092345801
 20
-18.9678941823
 30
0.0
 11
-107.6539202428
 21
-18.9678941823
 31
0.0
  0
LINE
  5
A8
330
1F
100
AcDbEntity
  8
0
  6
Continuous
 62
     7
370
    25
100
AcDbLine
 10
-107.6539202428
 20
231.0321058177
 30
0.0
 11
-258.9092345801
 21
231.0321058177
 31
0.0
  0
LINE
  5
A9
330
1F
100
AcDbEntity
  8
0
  6
Continuous
 62
     7
370
    25
100
AcDbLine
 10
-107.6539202428
 20
-18.9678941823
 30
0.0
 11
-107.6539202428
 21
231.0321058177
 31
0.0
  0
LINE
  5
AA
330
1F
100
AcDbEntity
  8
0
  6
Continuous
 62
     7
370
    25
100
AcDbLine
 10
-258.9092345801
 20
-18.9678941823
 30
0.0
 11
-258.9092345801
 21
231.0321058177
 31
0.0
  0
LINE
  5
AB
330
1F
100
AcDbEntity
  8
0
  6
Continuous
 62
     7
370
    25
100
AcDbLine
 10
354.7736003889
 20
-319.2935869277
 30
0.0
 11
461.7272588473
 21
-381.0366197183
 31
0.0
  0
LINE
  5
AC
330
1F
100
AcDbEntity
  8
0
  6
Continuous
 62
     7
370
    25
100
AcDbLine
 10
586.7171004268
 20
-164.5244041231
 30
0.0
 11
479.7634419684
 21
-102.7813713325
 31
0.0
  0
LWPOLYLINE
  5
AD
330
1F
100
AcDbEntity
  8
0
  6
Continuous
 62
     7
370
    25
100
AcDbPolyline
 90
      136
 70
   128
 43
0.0
 10
417.2685211787
 20
-313.1050806158
 10
421.3808166476
 20
-310.6205751247
 10
425.4842058003
 20
-307.9203948226
 10
429.5698016096
 20
-305.0103876987
 10
433.6287555847
 20
-301.8968561805
 10
437.6522769351
 20
-298.5865434838
 10
441.6316516095
 20
-295.0866190089
 10
445.5582611685
 20
-291.4046628129
 10
449.4236014502
 20
-287.548649193
 10
453.2193009882
 20
-283.5269294159
 10
456.9371391425
 20
-279.3482136313
 10
460.5690639036
 20
-275.021552007
 10
464.1072093312
 20
-270.5563151286
 10
467.5439125902
 20
-265.9621737049
 10
470.8717305466
 20
-261.2490776233
 10
474.0834558877
 20
-256.4272344002
 10
477.1721327315
 20
-251.5070870746
 10
480.131071692
 20
-246.4992915897
 10
482.953864366
 20
-241.4146937156
 10
485.6343972133
 20
-236.2643055591
 10
488.1668647967
 20
-231.0592817139
 10
490.5457823552
 20
-225.8108951027
 10
492.7659976831
 20
-220.5305125622
 10
494.8227022885
 20
-215.2295702252
 10
496.7114418072
 20
-209.9195487523
 10
498.4281256499
 20
-204.6119484678
 10
499.9690358617
 20
-199.3182644518
 10
501.3308351742
 20
-194.0499616452
 10
502.5105742333
 20
-188.8184500187
 10
503.5056979869
 20
-183.6350598617
 10
504.3140512187
 20
-178.5110172428
 10
504.9338832154
 20
-173.4574196976
 10
505.363851559
 20
-168.4852121928
 10
505.6030250338
 20
-163.6051634228
 10
505.6508856433
 20
-158.8278424866
 10
505.5073297321
 20
-154.1635959974
 10
505.1726682103
 20
-149.6225256746
 10
504.6476258803
 20
-145.2144664653
 10
503.9333398669
 20
-140.9489652441
 10
503.0313571544
 20
-136.8352601369
 10
501.9436312366
 20
-132.8822605129
 10
500.6725178857
 20
-129.0985276891
 10
499.22077005
 20
-125.4922563882
 10
497.5915318922
 20
-122.0712569907
 10
495.7883319792
 20
-118.8429386197
 10
493.8150756406
 20
-115.8142930938
 10
491.6760365102
 20
-112.9918797849
 10
489.3758472705
 20
-110.3818114116
 10
486.9194896191
 20
-107.9897408009
 10
484.3122834797
 20
-105.8208486451
 10
481.5598754802
 20
-103.8798322815
 10
478.6682267236
 20
-102.1708955195
 10
475.6435998771
 20
-100.6977395355
 10
472.4925456088
 20
-99.4635548574
 10
469.2218884008
 20
-98.4710144542
 10
465.8387117683
 20
-97.7222679476
 10
462.3503429183
 20
-97.2189369557
 10
458.7643368812
 20
-96.9621115813
 10
455.0884601474
 20
-96.9523480512
 10
451.3306738474
 20
-97.1896675108
 10
447.4991165097
 20
-97.673555979
 10
443.602086434
 20
-98.4029654613
 10
439.64802372
 20
-99.376316219
 10
435.6454919868
 20
-100.5915001913
 10
431.603159827
 20
-102.0458855601
 10
427.5297820319
 20
-103.7363224507
 10
423.4341806307
 20
-105.6591497531
 10
419.3252257841
 20
-107.8102030517
 10
415.2118165733
 20
-110.1848236438
 10
411.1028617266
 20
-112.7778686302
 10
407.0072603255
 20
-115.5837220528
 10
402.9338825303
 20
-118.5963070578
 10
398.8915503705
 20
-121.8090990571
 10
394.8890186373
 20
-125.2151398584
 10
390.9349559233
 20
-128.807052736
 10
387.0379258477
 20
-132.5770584062
 10
383.2063685099
 20
-136.5169918765
 10
379.4485822099
 20
-140.6183201281
 10
375.7727054761
 20
-144.8721605974
 10
372.186699439
 20
-149.2693004131
 10
368.6983305891
 20
-153.8002163496
 10
365.3151539565
 20
-158.4550954519
 10
362.0444967485
 20
-163.2238562883
 10
358.8934424803
 20
-168.0961707848
 10
355.8688156337
 20
-173.0614865931
 10
352.9771668771
 20
-178.1090499448
 10
350.2247588776
 20
-183.2279289418
 10
347.6175527383
 20
-188.4070372319
 10
345.1611950868
 20
-193.6351580199
 10
342.8610058471
 20
-198.9009683604
 10
340.7219667167
 20
-204.1930636806
 10
338.7487103781
 20
-209.4999824806
 10
336.9455104651
 20
-214.810231156
 10
335.3162723073
 20
-220.1123088906
 10
333.8645244716
 20
-225.3947325647
 10
332.5934111207
 20
-230.6460616249
 10
331.5056852029
 20
-235.8549228618
 10
330.6037024904
 20
-241.0100350418
 10
329.889416477
 20
-246.1002333399
 10
329.364374147
 20
-251.1144935201
 10
329.0297126252
 20
-256.0419558114
 10
328.886156714
 20
-260.8719484276
 10
328.9340173236
 20
-265.5940106803
 10
329.1731907984
 20
-270.1979156341
 10
329.603159142
 20
-274.6736922562
 10
330.2229911387
 20
-279.011647011
 10
331.0313443704
 20
-283.2023848544
 10
332.026468124
 20
-287.2368295815
 10
333.2062071832
 20
-291.1062434833
 10
334.5680064957
 20
-294.8022462711
 10
336.1089167074
 20
-298.3168332257
 10
337.8256005501
 20
-301.6423925344
 10
339.7143400688
 20
-304.7717217764
 10
341.7710446742
 20
-307.6980435212
 10
343.9912600021
 20
-310.4150200077
 10
346.3701775606
 20
-312.9167668697
 10
348.902645144
 20
-315.1978658806
 10
351.5831779913
 20
-317.253376688
 10
354.4059706654
 20
-319.0788475131
 10
357.3649096258
 20
-320.6703247926
 10
360.4535864697
 20
-322.0243617411
 10
363.6653118107
 20
-323.1380258162
 10
366.9931297671
 20
-324.0089050693
 10
370.4298330261
 20
-324.63511337
 10
373.9679784537
 20
-325.0152944905
 10
377.5999032148
 20
-325.1486250432
 10
381.3177413692
 20
-325.0348162637
 10
385.1134409072
 20
-324.6741146367
 10
388.9787811888
 20
-324.0673013614
 10
392.9053907478
 20
-323.2156906602
 10
396.8847654223
 20
-322.1211269325
 10
400.9082867726
 20
-320.7859807593
 10
404.9672407477
 20
-319.2131437701
 10
409.052836557
 20
-317.4060223796
 10
413.1562257097
 20
-315.3685304101
 10
417.2685211787
 20
-313.1050806158
  0
LWPOLYLINE
  5
AE
330
1F
100
AcDbEntity
  8
0
  6
Continuous
 62
     7
370
    25
100
AcDbPolyline
 90
       52
 70
   128
 43
0.0
 10
524.2221796371
 20
-374.8481134064
 10
528.3344751061
 20
-372.3636079154
 10
532.4378642588
 20
-369.6634276133
 10
536.523460068
 20
-366.7534204894
 10
540.5824140431
 20
-363.6398889711
 10
544.6059353935
 20
-360.3295762745
 10
548.5853100679
 20
-356.8296517996
 10
552.5119196269
 20
-353.1476956036
 10
556.3772599086
 20
-349.2916819836
 10
560.1729594466
 20
-345.2699622066
 10
563.8907976009
 20
-341.0912464219
 10
567.5227223621
 20
-336.7645847976
 10
571.0608677897
 20
-332.2993479192
 10
574.4975710487
 20
-327.7052064956
 10
577.825389005
 20
-322.9921104139
 10
581.0371143461
 20
-318.1702671909
 10
584.12579119
 20
-313.2501198652
 10
587.0847301504
 20
-308.2423243804
 10
589.9075228244
 20
-303.1577265063
 10
592.5880556718
 20
-298.0073383497
 10
595.1205232551
 20
-292.8023145045
 10
597.4994408136
 20
-287.5539278933
 10
599.7196561416
 20
-282.2735453528
 10
601.776360747
 20
-276.9726030158
 10
603.6651002656
 20
-271.662581543
 10
605.3817841083
 20
-266.3549812584
 10
606.9226943201
 20
-261.0612972424
 10
608.2844936326
 20
-255.7929944358
 10
609.4642326917
 20
-250.5614828094
 10
610.4593564454
 20
-245.3780926523
 10
611.2677096771
 20
-240.2540500335
 10
611.8875416738
 20
-235.2004524882
 10
612.3175100174
 20
-230.2282449835
 10
612.5566834922
 20
-225.3481962135
 10
612.6045441017
 20
-220.5708752772
 10
612.4609881905
 20
-215.9066287881
 10
612.1263266688
 20
-211.3655584653
 10
611.6012843388
 20
-206.9574992559
 10
610.8869983253
 20
-202.6919980348
 10
609.9850156128
 20
-198.5782929276
 10
608.8972896951
 20
-194.6252933036
 10
607.6261763441
 20
-190.8415604797
 10
606.1744285084
 20
-187.2352891788
 10
604.5451903506
 20
-183.8142897814
 10
602.7419904377
 20
-180.5859714104
 10
600.7687340991
 20
-177.5573258845
 10
598.6296949687
 20
-174.7349125755
 10
596.3295057289
 20
-172.1248442023
 10
593.8731480775
 20
-169.7327735916
 10
591.2659419381
 20
-167.5638814357
 10
588.5135339387
 20
-165.6228650722
 10
586.7171004268
 20
-164.5244041231
  0
LWPOLYLINE
  5
AF
330
1F
100
AcDbEntity
  8
0
  6
Continuous
 62
     7
370
    25
100
AcDbPolyline
 90
       18
 70
   128
 43
0.0
 10
461.7272588473
 20
-381.0366197183
 10
464.3185680842
 20
-382.4133575833
 10
467.4072449281
 20
-383.7673945318
 10
470.6189702692
 20
-384.8810586068
 10
473.9467882255
 20
-385.7519378599
 10
477.3834914845
 20
-386.3781461606
 10
480.9216369121
 20
-386.7583272811
 10
484.5535616733
 20
-386.8916578338
 10
488.2713998276
 20
-386.7778490544
 10
492.0670993656
 20
-386.4171474273
 10
495.9324396473
 20
-385.810334152
 10
499.8590492063
 20
-384.9587234509
 10
503.8384238807
 20
-383.8641597231
 10
507.8619452311
 20
-382.52901355
 10
511.9208992061
 20
-380.9561765608
 10
516.0064950154
 20
-379.1490551702
 10
520.1098841681
 20
-377.1115632008
 10
524.2221796371
 20
-374.8481134064
  0
LWPOLYLINE
  5
B0
330
1F
100
AcDbEntity
  8
0
  6
Continuous
 62
     7
370
    25
100
AcDbPolyline
 90
      123
 70
   128
 43
0.0
 10
417.2685211787
 20
-294.569604186
 10
420.9923410833
 20
-292.3091326235
 10
424.706286087
 20
-289.833143246
 10
428.4005074753
 20
-287.1482019324
 10
432.0652088371
 20
-284.2614286644
 10
435.6906720432
 20
-281.1804786456
 10
439.2672830169
 20
-277.9135220017
 10
442.785557229
 20
-274.4692221144
 10
446.2361648487
 20
-270.8567126478
 10
449.6099554848
 20
-267.0855733275
 10
452.8979824512
 20
-263.1658045373
 10
456.0915264914
 20
-259.1078007991
 10
459.1821189007
 20
-254.9223232094
 10
462.1615639836
 20
-250.6204709024
 10
465.0219607874
 20
-246.2136516171
 10
467.755724054
 20
-241.7135514459
 10
470.3556043346
 20
-237.1321038456
 10
472.8147072142
 20
-232.4814579915
 10
475.1265115939
 20
-227.7739465605
 10
477.2848869841
 20
-223.0220530266
 10
479.2841097614
 20
-218.2383785571
 10
481.1188783462
 20
-213.4356085969
 10
482.7843272622
 20
-208.6264792285
 10
484.2760400382
 20
-203.8237433983
 10
485.5900609201
 20
-199.0401370985
 10
486.7229053608
 20
-194.288345593
 10
487.6715692604
 20
-189.5809697787
 10
488.4335369328
 20
-184.9304927699
 10
489.0067877767
 20
-180.3492467958
 10
489.389801634
 20
-175.8493804969
 10
489.5815628208
 20
-171.4428267099
 10
489.5815628208
 20
-167.1412708232
 10
489.389801634
 20
-162.9561197897
 10
489.0067877767
 20
-158.8984718776
 10
488.4335369328
 20
-154.9790872398
 10
487.6715692604
 20
-151.2083593796
 10
486.7229053608
 20
-147.5962875895
 10
485.5900609201
 20
-144.1524504346
 10
484.2760400382
 20
-140.8859803519
 10
482.7843272622
 20
-137.8055394329
 10
481.1188783462
 20
-134.9192964531
 10
479.2841097614
 20
-132.2349052099
 10
477.2848869841
 20
-129.7594842265
 10
475.1265115939
 20
-127.4995978743
 10
472.8147072142
 20
-125.4612389656
 10
470.3556043346
 20
-123.6498128617
 10
467.755724054
 20
-122.0701231392
 10
465.0219607874
 20
-120.7263588512
 10
462.1615639836
 20
-119.6220834189
 10
459.1821189007
 20
-118.7602251823
 10
456.0915264914
 20
-118.1430696345
 10
452.8979824512
 20
-117.7722533612
 10
449.6099554848
 20
-117.6487597003
 10
446.2361648487
 20
-117.7729161348
 10
442.785557229
 20
-118.1443934244
 10
439.2672830169
 20
-118.7622064778
 10
435.6906720432
 20
-119.624716966
 10
432.0652088371
 20
-120.7296376662
 10
428.4005074753
 20
-122.0740385274
 10
424.706286087
 20
-123.6543544402
 10
420.9923410833
 20
-125.4663946907
 10
417.2685211787
 20
-127.5053540742
 10
413.544701274
 20
-129.7658256367
 10
409.8307562703
 20
-132.2418150141
 10
406.136534882
 20
-134.9267563277
 10
402.4718335203
 20
-137.8135295958
 10
398.8463703141
 20
-140.8944796145
 10
395.2697593404
 20
-144.1614362585
 10
391.7514851283
 20
-147.6057361458
 10
388.3008775086
 20
-151.2182456124
 10
384.9270868725
 20
-154.9893849326
 10
381.6390599061
 20
-158.9091537229
 10
378.4455158659
 20
-162.9671574611
 10
375.3549234566
 20
-167.1526350507
 10
372.3754783737
 20
-171.4544873577
 10
369.5150815699
 20
-175.8613066431
 10
366.7813183033
 20
-180.3614068142
 10
364.1814380227
 20
-184.9428544146
 10
361.7223351431
 20
-189.5935002686
 10
359.4105307634
 20
-194.3010116996
 10
357.2521553732
 20
-199.0529052336
 10
355.252932596
 20
-203.836579703
 10
353.4181640111
 20
-208.6393496632
 10
351.7527150951
 20
-213.4484790317
 10
350.2610023191
 20
-218.2512148618
 10
348.9469814372
 20
-223.0348211616
 10
347.8141369966
 20
-227.7866126671
 10
346.865473097
 20
-232.4939884814
 10
346.1035054245
 20
-237.1444654902
 10
345.5302545806
 20
-241.7257114644
 10
345.1472407233
 20
-246.2255777632
 10
344.9554795366
 20
-250.6321315502
 10
344.9554795366
 20
-254.933687437
 10
345.1472407233
 20
-259.1188384704
 10
345.5302545806
 20
-263.1764863825
 10
346.1035054245
 20
-267.0958710204
 10
346.865473097
 20
-270.8665988806
 10
347.8141369966
 20
-274.4786706706
 10
348.9469814372
 20
-277.9225078255
 10
350.2610023191
 20
-281.1889779082
 10
351.7527150951
 20
-284.2694188273
 10
353.4181640111
 20
-287.1556618071
 10
355.252932596
 20
-289.8400530502
 10
357.2521553732
 20
-292.3154740336
 10
359.4105307634
 20
-294.5753603859
 10
361.7223351431
 20
-296.6137192946
 10
364.1814380227
 20
-298.4251453984
 10
366.7813183033
 20
-300.0048351209
 10
369.5150815699
 20
-301.348599409
 10
372.3754783737
 20
-302.4528748413
 10
375.3549234566
 20
-303.3147330779
 10
378.4455158659
 20
-303.9318886256
 10
381.6390599061
 20
-304.302704899
 10
384.9270868725
 20
-304.4261985599
 10
388.3008775086
 20
-304.3020421253
 10
391.7514851283
 20
-303.9305648358
 10
395.2697593404
 20
-303.3127517824
 10
398.8463703141
 20
-302.4502412941
 10
402.4718335203
 20
-301.3453205939
 10
406.136534882
 20
-300.0009197327
 10
409.8307562703
 20
-298.42060382
 10
413.544701274
 20
-296.6085635694
 10
417.2685211787
 20
-294.569604186
  0
ARC
  5
B1
330
1F
100
AcDbEntity
  8
0
  6
Continuous
 62
     7
370
    25
100
AcDbCircle
 10
610.8373158351
 20
-322.7823657285
 30
0.0
 40
172.3701063147912
100
AcDbArc
 50
137.6753516918
 51
162.3300248409
  0
ENDSEC
  0
SECTION
  2
OBJECTS
  0
DICTIONARY
  5
C
330
0
100
AcDbDictionary
281
     1
  3
ACAD_GROUP
350
D
  3
ACAD_LAYOUT
350
1A
  3
ACAD_MLINESTYLE
350
17
  3
ACAD_PLOTSETTINGS
350
19
  3
ACAD_PLOTSTYLENAME
350
E
  3
ACAD_SCALELIST
350
47
  3
DWGPROPS
350
B2
  0
DICTIONARY
  5
D
102
{ACAD_REACTORS
330
C
102
}
330
C
100
AcDbDictionary
281
     1
  0
DICTIONARY
  5
1A
102
{ACAD_REACTORS
330
C
102
}
330
C
100
AcDbDictionary
281
     1
  3
Layout1
350
1E
  3
Layout2
350
26
  3
Model
350
22
  0
DICTIONARY
  5
17
102
{ACAD_REACTORS
330
C
102
}
330
C
100
AcDbDictionary
281
     1
  3
Standard
350
18
  0
DICTIONARY
  5
19
102
{ACAD_REACTORS
330
C
102
}
330
C
100
AcDbDictionary
281
     1
  0
ACDBDICTIONARYWDFLT
  5
E
102
{ACAD_REACTORS
330
C
102
}
330
C
100
AcDbDictionary
281
     1
  3
Normal
350
F
100
AcDbDictionaryWithDefault
340
F
  0
DICTIONARY
  5
47
102
{ACAD_REACTORS
330
C
102
}
330
C
100
AcDbDictionary
281
     1
  3
A0
350
48
  3
A1
350
49
  3
A2
350
4A
  3
A3
350
4B
  3
A4
350
4C
  3
A5
350
4D
  3
A6
350
4E
  3
A7
350
4F
  3
A8
350
50
  3
A9
350
51
  3
B0
350
52
  3
B1
350
53
  3
B2
350
54
  3
B3
350
55
  3
B4
350
56
  3
B5
350
57
  3
B6
350
58
  3
B7
350
59
  3
B8
350
5A
  3
B9
350
5B
  3
C0
350
5C
  3
C1
350
5D
  3
C2
350
5E
  3
C3
350
5F
  3
C4
350
60
  3
C5
350
61
  3
C6
350
62
  3
C7
350
63
  3
C8
350
64
  3
C9
350
65
  3
D0
350
66
  3
D1
350
67
  3
D2
350
68
  0
XRECORD
  5
B2
102
{ACAD_REACTORS
330
C
102
}
330
C
100
AcDbXrecord
280
     1
  1
DWGPROPS COOKIE
  2

  3

  4

  6

  7

  8
b.kav
  9

300
=
301
=
302
=
303
=
304
=
305
=
306
=
307
=
308
=
309
=
 40
0.0
 41
2460697.415991539
 42
2460697.415991539
  1

 90
        0
  0
LAYOUT
  5
1E
102
{ACAD_REACTORS
330
1A
102
}
330
1A
100
AcDbPlotSettings
  1

  2
none_device
  4

  6

 40
0.0
 41
0.0
 42
0.0
 43
0.0
 44
0.0
 45
0.0
 46
0.0
 47
0.0
 48
0.0
 49
0.0
140
0.0
141
0.0
142
1.0
143
1.0
 70
   688
 72
     1
 73
     0
 74
     5
  7

 75
    16
147
1.0
148
0.0
149
0.0
100
AcDbLayout
  1
Layout1
 70
     1
 71
     1
 10
0.0
 20
0.0
 11
420.0
 21
297.0
 12
0.0
 22
0.0
 32
0.0
 14
1.0000000000E+20
 24
1.0000000000E+20
 34
1.0000000000E+20
 15
-1.0000000000E+20
 25
-1.0000000000E+20
 35
-1.0000000000E+20
146
0.0
 13
0.0
 23
0.0
 33
0.0
 16
1.0
 26
0.0
 36
0.0
 17
0.0
 27
1.0
 37
0.0
 76
     0
330
1B
  0
LAYOUT
  5
26
102
{ACAD_REACTORS
330
1A
102
}
330
1A
100
AcDbPlotSettings
  1

  2
none_device
  4

  6

 40
0.0
 41
0.0
 42
0.0
 43
0.0
 44
0.0
 45
0.0
 46
0.0
 47
0.0
 48
0.0
 49
0.0
140
0.0
141
0.0
142
1.0
143
1.0
 70
   688
 72
     1
 73
     0
 74
     5
  7

 75
    16
147
1.0
148
0.0
149
0.0
100
AcDbLayout
  1
Layout2
 70
     1
 71
     2
 10
0.0
 20
0.0
 11
0.0
 21
0.0
 12
0.0
 22
0.0
 32
0.0
 14
0.0
 24
0.0
 34
0.0
 15
0.0
 25
0.0
 35
0.0
146
0.0
 13
0.0
 23
0.0
 33
0.0
 16
1.0
 26
0.0
 36
0.0
 17
0.0
 27
1.0
 37
0.0
 76
     0
330
23
  0
LAYOUT
  5
22
102
{ACAD_REACTORS
330
1A
102
}
330
1A
100
AcDbPlotSettings
  1

  2
none_device
  4
Letter_(8.50_x_11.00_Inches)
  6

 40
6.35
 41
6.35
 42
6.35000508
 43
6.35000508
 44
215.9
 45
279.4
 46
0.0
 47
0.0
 48
0.0
 49
0.0
140
0.0
141
0.0
142
1.0
143
1.0
 70
  1712
 72
     1
 73
     0
 74
     0
  7

 75
     0
147
1.0
148
0.0
149
0.0
100
AcDbLayout
  1
Model
 70
     1
 71
     0
 10
0.0
 20
0.0
 11
279.4
 21
215.9
 12
0.0
 22
0.0
 32
0.0
 14
0.0
 24
0.0
 34
0.0
 15
279.4
 25
215.9
 35
0.0
146
0.0
 13
0.0
 23
0.0
 33
0.0
 16
1.0
 26
0.0
 36
0.0
 17
0.0
 27
1.0
 37
0.0
 76
     0
330
1F
331
29
  0
MLINESTYLE
  5
18
102
{ACAD_REACTORS
330
17
102
}
330
17
100
AcDbMlineStyle
  2
Standard
 70
     0
  3

 62
   256
 51
90.0
 52
90.0
 71
     2
 49
0.5
 62
   256
  6
BYLAYER
 49
-0.5
 62
   256
  6
BYLAYER
  0
ACDBPLACEHOLDER
  5
F
102
{ACAD_REACTORS
330
E
102
}
330
E
  0
SCALE
  5
48
102
{ACAD_REACTORS
330
47
102
}
330
47
100
AcDbScale
 70
     0
300
1:1
140
1.0
141
1.0
290
     1
  0
SCALE
  5
49
102
{ACAD_REACTORS
330
47
102
}
330
47
100
AcDbScale
 70
     0
300
1:2
140
1.0
141
2.0
290
     0
  0
SCALE
  5
4A
102
{ACAD_REACTORS
330
47
102
}
330
47
100
AcDbScale
 70
     0
300
1:4
140
1.0
141
4.0
290
     0
  0
SCALE
  5
4B
102
{ACAD_REACTORS
330
47
102
}
330
47
100
AcDbScale
 70
     0
300
1:5
140
1.0
141
5.0
290
     0
  0
SCALE
  5
4C
102
{ACAD_REACTORS
330
47
102
}
330
47
100
AcDbScale
 70
     0
300
1:8
140
1.0
141
8.0
290
     0
  0
SCALE
  5
4D
102
{ACAD_REACTORS
330
47
102
}
330
47
100
AcDbScale
 70
     0
300
1:10
140
1.0
141
10.0
290
     0
  0
SCALE
  5
4E
102
{ACAD_REACTORS
330
47
102
}
330
47
100
AcDbScale
 70
     0
300
1:16
140
1.0
141
16.0
290
     0
  0
SCALE
  5
4F
102
{ACAD_REACTORS
330
47
102
}
330
47
100
AcDbScale
 70
     0
300
1:20
140
1.0
141
20.0
290
     0
  0
SCALE
  5
50
102
{ACAD_REACTORS
330
47
102
}
330
47
100
AcDbScale
 70
     0
300
1:30
140
1.0
141
30.0
290
     0
  0
SCALE
  5
51
102
{ACAD_REACTORS
330
47
102
}
330
47
100
AcDbScale
 70
     0
300
1:40
140
1.0
141
40.0
290
     0
  0
SCALE
  5
52
102
{ACAD_REACTORS
330
47
102
}
330
47
100
AcDbScale
 70
     0
300
1:50
140
1.0
141
50.0
290
     0
  0
SCALE
  5
53
102
{ACAD_REACTORS
330
47
102
}
330
47
100
AcDbScale
 70
     0
300
1:100
140
1.0
141
100.0
290
     0
  0
SCALE
  5
54
102
{ACAD_REACTORS
330
47
102
}
330
47
100
AcDbScale
 70
     0
300
2:1
140
2.0
141
1.0
290
     0
  0
SCALE
  5
55
102
{ACAD_REACTORS
330
47
102
}
330
47
100
AcDbScale
 70
     0
300
4:1
140
4.0
141
1.0
290
     0
  0
SCALE
  5
56
102
{ACAD_REACTORS
330
47
102
}
330
47
100
AcDbScale
 70
     0
300
8:1
140
8.0
141
1.0
290
     0
  0
SCALE
  5
57
102
{ACAD_REACTORS
330
47
102
}
330
47
100
AcDbScale
 70
     0
300
10:1
140
10.0
141
1.0
290
     0
  0
SCALE
  5
58
102
{ACAD_REACTORS
330
47
102
}
330
47
100
AcDbScale
 70
     0
300
100:1
140
100.0
141
1.0
290
     0
  0
SCALE
  5
59
102
{ACAD_REACTORS
330
47
102
}
330
47
100
AcDbScale
 70
     0
300
1/128" = 1'-0"
140
0.0078125
141
12.0
290
     0
  0
SCALE
  5
5A
102
{ACAD_REACTORS
330
47
102
}
330
47
100
AcDbScale
 70
     0
300
1/64" = 1'-0"
140
0.015625
141
12.0
290
     0
  0
SCALE
  5
5B
102
{ACAD_REACTORS
330
47
102
}
330
47
100
AcDbScale
 70
     0
300
1/32" = 1'-0"
140
0.03125
141
12.0
290
     0
  0
SCALE
  5
5C
102
{ACAD_REACTORS
330
47
102
}
330
47
100
AcDbScale
 70
     0
300
1/16" = 1'-0"
140
0.0625
141
12.0
290
     0
  0
SCALE
  5
5D
102
{ACAD_REACTORS
330
47
102
}
330
47
100
AcDbScale
 70
     0
300
3/32" = 1'-0"
140
0.09375
141
12.0
290
     0
  0
SCALE
  5
5E
102
{ACAD_REACTORS
330
47
102
}
330
47
100
AcDbScale
 70
     0
300
1/8" = 1'-0"
140
0.125
141
12.0
290
     0
  0
SCALE
  5
5F
102
{ACAD_REACTORS
330
47
102
}
330
47
100
AcDbScale
 70
     0
300
3/16" = 1'-0"
140
0.1875
141
12.0
290
     0
  0
SCALE
  5
60
102
{ACAD_REACTORS
330
47
102
}
330
47
100
AcDbScale
 70
     0
300
1/4" = 1'-0"
140
0.25
141
12.0
290
     0
  0
SCALE
  5
61
102
{ACAD_REACTORS
330
47
102
}
330
47
100
AcDbScale
 70
     0
300
3/8" = 1'-0"
140
0.375
141
12.0
290
     0
  0
SCALE
  5
62
102
{ACAD_REACTORS
330
47
102
}
330
47
100
AcDbScale
 70
     0
300
1/2" = 1'-0"
140
0.5
141
12.0
290
     0
  0
SCALE
  5
63
102
{ACAD_REACTORS
330
47
102
}
330
47
100
AcDbScale
 70
     0
300
3/4" = 1'-0"
140
0.75
141
12.0
290
     0
  0
SCALE
  5
64
102
{ACAD_REACTORS
330
47
102
}
330
47
100
AcDbScale
 70
     0
300
1" = 1'-0"
140
1.0
141
12.0
290
     0
  0
SCALE
  5
65
102
{ACAD_REACTORS
330
47
102
}
330
47
100
AcDbScale
 70
     0
300
1-1/2" = 1'-0"
140
1.5
141
12.0
290
     0
  0
SCALE
  5
66
102
{ACAD_REACTORS
330
47
102
}
330
47
100
AcDbScale
 70
     0
300
3" = 1'-0"
140
3.0
141
12.0
290
     0
  0
SCALE
  5
67
102
{ACAD_REACTORS
330
47
102
}
330
47
100
AcDbScale
 70
     0
300
6" = 1'-0"
140
6.0
141
12.0
290
     0
  0
SCALE
  5
68
102
{ACAD_REACTORS
330
47
102
}
330
47
100
AcDbScale
 70
     0
300
1'-0" = 1'-0"
140
12.0
141
12.0
290
     0
  0
ENDSEC
  0
EOF
